Keep Up with Us
Recommend on Google


Cover Songs Wanted
Are you a musician? Do you have a band? If you record a cover of the song "Mesozoic Mind," we've just added a new section all for you! We'll post the song and links to your band's website, myspace and any other social network that you may be a part of! Mesozoic Mind Cover Songs
Link to Us!
88x33
Use this 88x33 banner
(save it and put it up on your own webspace) and link to http://www.MesozoicMind.com
or use:
Contact Us
Contact Us
Mesozoic Mind Apparel
In association with Zazzle.com
Tabs

Tabbed by Nick (ReligiousZealot9)Questions or comments e-mail me at haggart85@hotmail.com Note: I took the time to tab this song out for those of you who are obsessed with this song like me, and you happen to want to learn to play it, haha.
"Mesozoic Mind" by Charmer
Download the Tabs Here! (MesozoicTabs.doc)


Let ring
|---|
|---|
|-4-| x2
|-4-|
|-2-|
|---|

Intro Riff
|--7----------------------------------|
|----10-7---------------------7-------|
|---------9-7---7--9~~8-8-6-8---9-68--| x2
|-------------9-----------------------|
|-------------------------------------|
|-------------------------------------|

Guitar 2’s part under lead
|-------------------------------------|
|-------------------------------------|
|--4------------7--9--4-4-2-4-7-6-24--| x2
|--4------------7--9--4-4-2-4-7-6-24--|
|--2------------5--7--2-2-0-2-5-4-02--|
|-------------------------------------|

Verse
Rhythm not shown here…
|--------------|-------------|---------------|
|--------------|-------------|---------------|
|--4-4-4-4-4-4-|-6-6-6-6-6-6-|-77-99-4-4-4-4-| x2
|--4-4-4-4-4-4-|-6-6-6-6-6-6-|-77-99-4-4-4-4-|
|--2-2-2-2-2-2-|-4-4-4-4-4-4-|-55-77-2-2-2-2-|
|--------------|-------------|---------------|

|-------------|-------------|    |-------------|-------------|
|-------------|-------------|    |-------------|-------------|
|-------------|-2-2-2-2-2-2-| x3 |-7-7-7-7-7-7-|-------------|
|-2-2-2-2-2-2-|-2-2-2-2-2-2-|    |-7-7-7-7-7-7-|-4-4-4-4-4-4-|
|-2-2-2-2-2-2-|-0-0-0-0-0-0-|    |-5-5-5-5-5-5-|-4-4-4-4-4-4-|
|-0-0-0-0-0-0-|-------------|    |-------------|-2-2-2-2-2-2-|

Chorus
Rhythm not shown, play chords for measure(s) indicated
E E E7 E7 A A B A
|--0----|--0----|--0----|--0----|-------|-------|-------|------|
|--0----|--0----|--3----|--3----|--2----|--2----|--4----|-2----|
|--1----|--1----|--1----|--1----|--2----|--2----|--4----|-2----|
|--2----|--2----|--2----|--2----|--2----|--2----|--4----|-2----|
|--2----|--2----|--2----|--2----|--0----|--0----|--2----|-0----|
|--0----|--0----|--0----|--0----|-------|-------|-------|------|

|--0----|--0----|------|-------|-------|-------|-------|-------|
|--0----|--0----|-2----|--4----|--2----|--2----|--4----|--4----|
|--1----|--1----|-2----|--4----|--2----|--2----|--4----|--4----|
|--2----|--2----|-2----|--4----|--2----|--2----|--4----|--4----|
|--2----|--2----|-0----|--2----|--0----|--0----|--2----|--2----|
|--0----|--0----|------|-------|-------|-------|-------|-------|

Lead lix over last part of chorus
|--4-----4-----4-----4-------7--|
|----5-----5-----5-----5-----7--|
|------6-----6-----6-----6---6--|
|-------------------------------|
|-------------------------------|
|-------------------------------|

Order:
Intro
Verse
Intro
Verse
Chorus
Intro
Verse
Intro
Verse
Chorus
Intro
"Soloettes"


Right now I haven’t had the time to try to tab out the solos at the end of the song, but I’ll update it eventually. Just to give you an idea, the solos are based right out of the panatonic scale the intro riff comes from, so just go crazy with that.

Comments
blog comments powered by Disqus

FacebookFollow MesozoicMind on Twitter
Privacy Policy | Disclaimer
based on the children’s video “Dinosaurs! A Fun-Filled Trip Back in Time!” and "Dinosaur" © Will Vinton/Pyramid Films 1987, 1980
MesozoicMind.com Website and Design © 2003-2012 Paul Martin